ISO-10303-21;
HEADER;
FILE_DESCRIPTION (( 'STEP AP203' ),
    '1' );
FILE_NAME ('UVFS-LNPBSP-12.7-355.STEP',
    '2020-12-22T04:15:04',
    ( '' ),
    ( '' ),
    'SwSTEP 2.0',
    'SolidWorks 2020',
    '' );
FILE_SCHEMA (( 'CONFIG_CONTROL_DESIGN' ));
ENDSEC;

DATA;
#1 = DIRECTION ( 'NONE',  ( -1.000000000000000000, -0.000000000000000000, -0.000000000000000000 ) ) ;
#2 = CC_DESIGN_PERSON_AND_ORGANIZATION_ASSIGNMENT ( #153, #32, ( #21 ) ) ;
#3 = COORDINATED_UNIVERSAL_TIME_OFFSET ( 8, 0, .AHEAD. ) ;
#4 = CALENDAR_DATE ( 2020, 22, 12 ) ;
#5 =( GEOMETRIC_REPRESENTATION_CONTEXT ( 3 ) GLOBAL_UNCERTAINTY_ASSIGNED_CONTEXT ( ( #35 ) ) GLOBAL_UNIT_ASSIGNED_CONTEXT ( ( #125, #101, #138 ) ) REPRESENTATION_CONTEXT ( 'NONE', 'WORKASPACE' ) );
#6 = CARTESIAN_POINT ( 'NONE',  ( 0.000000000000000000, 7.776507174585692163E-16, -6.349999999999999645 ) ) ;
#7 = COORDINATED_UNIVERSAL_TIME_OFFSET ( 8, 0, .AHEAD. ) ;
#8 = PRODUCT_DEFINITION_FORMATION_WITH_SPECIFIED_SOURCE ( 'ANY', '', #21, .NOT_KNOWN. ) ;
#9 = DIRECTION ( 'NONE',  ( -0.000000000000000000, 0.000000000000000000, 1.000000000000000000 ) ) ;
#10 = CARTESIAN_POINT ( 'NONE',  ( 2.999999999999999112, 0.000000000000000000, 6.349999999999999645 ) ) ;
#11 = DIRECTION ( 'NONE',  ( -1.000000000000000000, -0.000000000000000000, -0.000000000000000000 ) ) ;
#12 = ORIENTED_EDGE ( 'NONE', *, *, #34, .T. ) ;
#13 = VERTEX_POINT ( 'NONE', #80 ) ;
#14 = DIRECTION ( 'NONE',  ( 1.000000000000000000, 0.000000000000000000, 0.000000000000000000 ) ) ;
#15 = CC_DESIGN_SECURITY_CLASSIFICATION ( #160, ( #8 ) ) ;
#16 = PERSON_AND_ORGANIZATION ( #68, #22 ) ;
#17 = APPLICATION_CONTEXT ( 'configuration controlled 3d designs of mechanical parts and assemblies' ) ;
#18 = DATE_TIME_ROLE ( 'classification_date' ) ;
#19 = PERSON_AND_ORGANIZATION ( #68, #22 ) ;
#20 = CC_DESIGN_DATE_AND_TIME_ASSIGNMENT ( #115, #18, ( #160 ) ) ;
#21 = PRODUCT ( 'UVFS-LNPBSP-12.7-355', 'UVFS-LNPBSP-12.7-355', '', ( #86 ) ) ;
#22 = ORGANIZATION ( 'UNSPECIFIED', 'UNSPECIFIED', '' ) ;
#23 = CARTESIAN_POINT ( 'NONE',  ( 0.000000000000000000, 0.000000000000000000, 0.000000000000000000 ) ) ;
#24 = ORIENTED_EDGE ( 'NONE', *, *, #62, .F. ) ;
#25 = LINE ( 'NONE', #6, #60 ) ;
#26 = DIRECTION ( 'NONE',  ( 0.000000000000000000, 0.000000000000000000, -1.000000000000000000 ) ) ;
#27 = DIRECTION ( 'NONE',  ( -1.000000000000000000, -0.000000000000000000, -0.000000000000000000 ) ) ;
#28 = PERSON_AND_ORGANIZATION ( #68, #22 ) ;
#29 = AXIS2_PLACEMENT_3D ( 'NONE', #146, #1, #110 ) ;
#30 = COORDINATED_UNIVERSAL_TIME_OFFSET ( 8, 0, .AHEAD. ) ;
#31 = APPROVAL_PERSON_ORGANIZATION ( #140, #81, #45 ) ;
#32 = PERSON_AND_ORGANIZATION_ROLE ( 'design_owner' ) ;
#33 = DIRECTION ( 'NONE',  ( -1.000000000000000000, -0.000000000000000000, -0.000000000000000000 ) ) ;
#34 = EDGE_CURVE ( 'NONE', #165, #137, #139, .T. ) ;
#35 = UNCERTAINTY_MEASURE_WITH_UNIT (LENGTH_MEASURE( 1.000000000000000082E-05 ), #125, 'distance_accuracy_value', 'NONE');
#36 = DIRECTION ( 'NONE',  ( -1.000000000000000000, -0.000000000000000000, -0.000000000000000000 ) ) ;
#37 = CARTESIAN_POINT ( 'NONE',  ( -4.102566777143633281E-16, 7.776507174585692163E-16, -6.349999999999999645 ) ) ;
#38 = CARTESIAN_POINT ( 'NONE',  ( -4.102566777143633281E-16, 0.000000000000000000, 6.349999999999999645 ) ) ;
#39 = CYLINDRICAL_SURFACE ( 'NONE', #83, 6.349999999999999645 ) ;
#40 = CIRCLE ( 'NONE', #134, 6.349999999999999645 ) ;
#41 = CC_DESIGN_PERSON_AND_ORGANIZATION_ASSIGNMENT ( #102, #155, ( #118 ) ) ;
#42 = APPROVAL_STATUS ( 'not_yet_approved' ) ;
#43 = COORDINATED_UNIVERSAL_TIME_OFFSET ( 8, 0, .AHEAD. ) ;
#44 = CIRCLE ( 'NONE', #159, 6.349999999999999645 ) ;
#45 = APPROVAL_ROLE ( '' ) ;
#46 = APPROVAL_PERSON_ORGANIZATION ( #116, #173, #152 ) ;
#47 = DATE_AND_TIME ( #90, #51 ) ;
#48 = LOCAL_TIME ( 12, 15, 4.000000000000000000, #43 ) ;
#49 = APPROVAL_DATE_TIME ( #47, #173 ) ;
#50 = PRODUCT_DEFINITION_SHAPE ( 'NONE', 'NONE',  #118 ) ;
#51 = LOCAL_TIME ( 12, 15, 4.000000000000000000, #7 ) ;
#52 = FACE_OUTER_BOUND ( 'NONE', #100, .T. ) ;
#53 = DIRECTION ( 'NONE',  ( 0.000000000000000000, 0.000000000000000000, 1.000000000000000000 ) ) ;
#54 = CARTESIAN_POINT ( 'NONE',  ( -2.051283388571816641E-16, 6.349999999999999645, 0.000000000000000000 ) ) ;
#55 = PERSON_AND_ORGANIZATION_ROLE ( 'classification_officer' ) ;
#56 = CALENDAR_DATE ( 2020, 22, 12 ) ;
#57 = CALENDAR_DATE ( 2020, 22, 12 ) ;
#58 = APPROVAL ( #154, 'UNSPECIFIED' ) ;
#59 = APPROVAL_PERSON_ORGANIZATION ( #28, #58, #127 ) ;
#60 = VECTOR ( 'NONE', #33, 1000.000000000000000 ) ;
#61 = AXIS2_PLACEMENT_3D ( 'NONE', #72, #88, #14 ) ;
#62 = EDGE_CURVE ( 'NONE', #13, #63, #40, .T. ) ;
#63 = VERTEX_POINT ( 'NONE', #10 ) ;
#64 = LINE ( 'NONE', #120, #113 ) ;
#65 = EDGE_LOOP ( 'NONE', ( #131, #24 ) ) ;
#66 = EDGE_CURVE ( 'NONE', #63, #13, #44, .T. ) ;
#67 = DIRECTION ( 'NONE',  ( 0.000000000000000000, 0.000000000000000000, 1.000000000000000000 ) ) ;
#68 = PERSON ( 'UNSPECIFIED', 'UNSPECIFIED', 'UNSPECIFIED', ('UNSPECIFIED'), ('UNSPECIFIED'), ('UNSPECIFIED') ) ;
#69 = ORIENTED_EDGE ( 'NONE', *, *, #167, .T. ) ;
#70 = DATE_AND_TIME ( #4, #48 ) ;
#71 = CC_DESIGN_PERSON_AND_ORGANIZATION_ASSIGNMENT ( #19, #55, ( #160 ) ) ;
#72 = CARTESIAN_POINT ( 'NONE',  ( 0.000000000000000000, 0.000000000000000000, 0.000000000000000000 ) ) ;
#73 = APPLICATION_PROTOCOL_DEFINITION ( 'international standard', 'config_control_design', 1994, #17 ) ;
#74 = ADVANCED_BREP_SHAPE_REPRESENTATION ( 'UVFS-LNPBSP-12.7-355', ( #91, #61 ), #5 ) ;
#75 = EDGE_CURVE ( 'NONE', #63, #165, #64, .T. ) ;
#76 = DATE_AND_TIME ( #57, #130 ) ;
#77 = SHAPE_DEFINITION_REPRESENTATION ( #50, #74 ) ;
#78 = DESIGN_CONTEXT ( 'detailed design', #17, 'design' ) ;
#79 = DIRECTION ( 'NONE',  ( -1.000000000000000000, -0.000000000000000000, -0.000000000000000000 ) ) ;
#80 = CARTESIAN_POINT ( 'NONE',  ( 2.999999999999999112, 7.776507174585692163E-16, -6.349999999999999645 ) ) ;
#81 = APPROVAL ( #104, 'UNSPECIFIED' ) ;
#82 = EDGE_LOOP ( 'NONE', ( #12, #109 ) ) ;
#83 = AXIS2_PLACEMENT_3D ( 'NONE', #108, #36, #53 ) ;
#84 = ORIENTED_EDGE ( 'NONE', *, *, #66, .T. ) ;
#85 = DIRECTION ( 'NONE',  ( 0.000000000000000000, 0.000000000000000000, 1.000000000000000000 ) ) ;
#86 = MECHANICAL_CONTEXT ( 'NONE', #158, 'mechanical' ) ;
#87 = AXIS2_PLACEMENT_3D ( 'NONE', #54, #112, #26 ) ;
#88 = DIRECTION ( 'NONE',  ( 0.000000000000000000, 0.000000000000000000, 1.000000000000000000 ) ) ;
#89 = DATE_TIME_ROLE ( 'creation_date' ) ;
#90 = CALENDAR_DATE ( 2020, 22, 12 ) ;
#91 = MANIFOLD_SOLID_BREP ( 'Ðý×', #169 ) ;
#92 = ADVANCED_FACE ( 'NONE', ( #174 ), #148, .F. ) ;
#93 = FACE_OUTER_BOUND ( 'NONE', #82, .T. ) ;
#94 = AXIS2_PLACEMENT_3D ( 'NONE', #172, #133, #9 ) ;
#95 = CARTESIAN_POINT ( 'NONE',  ( -4.102566777143633281E-16, 0.000000000000000000, 0.000000000000000000 ) ) ;
#96 = CC_DESIGN_PERSON_AND_ORGANIZATION_ASSIGNMENT ( #166, #141, ( #8 ) ) ;
#97 = ORIENTED_EDGE ( 'NONE', *, *, #75, .T. ) ;
#98 = EDGE_LOOP ( 'NONE', ( #135, #123, #97, #122 ) ) ;
#99 = AXIS2_PLACEMENT_3D ( 'NONE', #95, #162, #67 ) ;
#100 = EDGE_LOOP ( 'NONE', ( #84, #69, #144, #175 ) ) ;
#101 =( NAMED_UNIT ( * ) PLANE_ANGLE_UNIT ( ) SI_UNIT ( $, .RADIAN. ) );
#102 = PERSON_AND_ORGANIZATION ( #68, #22 ) ;
#103 = SECURITY_CLASSIFICATION_LEVEL ( 'unclassified' ) ;
#104 = APPROVAL_STATUS ( 'not_yet_approved' ) ;
#105 = ADVANCED_FACE ( 'NONE', ( #52 ), #39, .T. ) ;
#106 = CC_DESIGN_APPROVAL ( #58, ( #118 ) ) ;
#107 = ADVANCED_FACE ( 'NONE', ( #93 ), #147, .F. ) ;
#108 = CARTESIAN_POINT ( 'NONE',  ( 0.000000000000000000, 0.000000000000000000, 0.000000000000000000 ) ) ;
#109 = ORIENTED_EDGE ( 'NONE', *, *, #145, .T. ) ;
#110 = DIRECTION ( 'NONE',  ( 0.000000000000000000, 0.000000000000000000, 1.000000000000000000 ) ) ;
#111 = CYLINDRICAL_SURFACE ( 'NONE', #170, 6.349999999999999645 ) ;
#112 = DIRECTION ( 'NONE',  ( 1.000000000000000000, 0.000000000000000000, 0.000000000000000000 ) ) ;
#113 = VECTOR ( 'NONE', #161, 1000.000000000000000 ) ;
#114 = CC_DESIGN_PERSON_AND_ORGANIZATION_ASSIGNMENT ( #16, #156, ( #8 ) ) ;
#115 = DATE_AND_TIME ( #56, #150 ) ;
#116 = PERSON_AND_ORGANIZATION ( #68, #22 ) ;
#117 = APPROVAL_DATE_TIME ( #142, #81 ) ;
#118 = PRODUCT_DEFINITION ( 'UNKNOWN', '', #8, #78 ) ;
#119 = FACE_OUTER_BOUND ( 'NONE', #98, .T. ) ;
#120 = CARTESIAN_POINT ( 'NONE',  ( 0.000000000000000000, 0.000000000000000000, 6.349999999999999645 ) ) ;
#121 = LOCAL_TIME ( 12, 15, 4.000000000000000000, #129 ) ;
#122 = ORIENTED_EDGE ( 'NONE', *, *, #145, .F. ) ;
#123 = ORIENTED_EDGE ( 'NONE', *, *, #62, .T. ) ;
#124 = CC_DESIGN_APPROVAL ( #81, ( #8 ) ) ;
#125 =( LENGTH_UNIT ( ) NAMED_UNIT ( * ) SI_UNIT ( .MILLI., .METRE. ) );
#126 = APPLICATION_PROTOCOL_DEFINITION ( 'international standard', 'config_control_design', 1994, #158 ) ;
#127 = APPROVAL_ROLE ( '' ) ;
#128 = CALENDAR_DATE ( 2020, 22, 12 ) ;
#129 = COORDINATED_UNIVERSAL_TIME_OFFSET ( 8, 0, .AHEAD. ) ;
#130 = LOCAL_TIME ( 12, 15, 4.000000000000000000, #30 ) ;
#131 = ORIENTED_EDGE ( 'NONE', *, *, #66, .F. ) ;
#132 = DIRECTION ( 'NONE',  ( 0.000000000000000000, 0.000000000000000000, 1.000000000000000000 ) ) ;
#133 = DIRECTION ( 'NONE',  ( -1.000000000000000000, 0.000000000000000000, -0.000000000000000000 ) ) ;
#134 = AXIS2_PLACEMENT_3D ( 'NONE', #151, #27, #132 ) ;
#135 = ORIENTED_EDGE ( 'NONE', *, *, #167, .F. ) ;
#136 = ADVANCED_FACE ( 'NONE', ( #119 ), #111, .T. ) ;
#137 = VERTEX_POINT ( 'NONE', #37 ) ;
#138 =( NAMED_UNIT ( * ) SI_UNIT ( $, .STERADIAN. ) SOLID_ANGLE_UNIT ( ) );
#139 = CIRCLE ( 'NONE', #29, 6.349999999999999645 ) ;
#140 = PERSON_AND_ORGANIZATION ( #68, #22 ) ;
#141 = PERSON_AND_ORGANIZATION_ROLE ( 'design_supplier' ) ;
#142 = DATE_AND_TIME ( #128, #121 ) ;
#143 = CC_DESIGN_APPROVAL ( #173, ( #160 ) ) ;
#144 = ORIENTED_EDGE ( 'NONE', *, *, #34, .F. ) ;
#145 = EDGE_CURVE ( 'NONE', #137, #165, #149, .T. ) ;
#146 = CARTESIAN_POINT ( 'NONE',  ( -4.102566777143633281E-16, 0.000000000000000000, 0.000000000000000000 ) ) ;
#147 = PLANE ( 'NONE',  #87 ) ;
#148 = PLANE ( 'NONE',  #94 ) ;
#149 = CIRCLE ( 'NONE', #99, 6.349999999999999645 ) ;
#150 = LOCAL_TIME ( 12, 15, 4.000000000000000000, #3 ) ;
#151 = CARTESIAN_POINT ( 'NONE',  ( 2.999999999999999112, 0.000000000000000000, 0.000000000000000000 ) ) ;
#152 = APPROVAL_ROLE ( '' ) ;
#153 = PERSON_AND_ORGANIZATION ( #68, #22 ) ;
#154 = APPROVAL_STATUS ( 'not_yet_approved' ) ;
#155 = PERSON_AND_ORGANIZATION_ROLE ( 'creator' ) ;
#156 = PERSON_AND_ORGANIZATION_ROLE ( 'creator' ) ;
#157 = CC_DESIGN_DATE_AND_TIME_ASSIGNMENT ( #76, #89, ( #118 ) ) ;
#158 = APPLICATION_CONTEXT ( 'configuration controlled 3d designs of mechanical parts and assemblies' ) ;
#159 = AXIS2_PLACEMENT_3D ( 'NONE', #171, #11, #85 ) ;
#160 = SECURITY_CLASSIFICATION ( '', '', #103 ) ;
#161 = DIRECTION ( 'NONE',  ( -1.000000000000000000, -0.000000000000000000, -0.000000000000000000 ) ) ;
#162 = DIRECTION ( 'NONE',  ( -1.000000000000000000, -0.000000000000000000, -0.000000000000000000 ) ) ;
#163 = PRODUCT_RELATED_PRODUCT_CATEGORY ( 'detail', '', ( #21 ) ) ;
#164 = DIRECTION ( 'NONE',  ( 0.000000000000000000, 0.000000000000000000, 1.000000000000000000 ) ) ;
#165 = VERTEX_POINT ( 'NONE', #38 ) ;
#166 = PERSON_AND_ORGANIZATION ( #68, #22 ) ;
#167 = EDGE_CURVE ( 'NONE', #13, #137, #25, .T. ) ;
#168 = APPROVAL_DATE_TIME ( #70, #58 ) ;
#169 = CLOSED_SHELL ( 'NONE', ( #105, #136, #92, #107 ) ) ;
#170 = AXIS2_PLACEMENT_3D ( 'NONE', #23, #79, #164 ) ;
#171 = CARTESIAN_POINT ( 'NONE',  ( 2.999999999999999112, 0.000000000000000000, 0.000000000000000000 ) ) ;
#172 = CARTESIAN_POINT ( 'NONE',  ( 2.999999999999999556, 6.349999999999999645, 0.000000000000000000 ) ) ;
#173 = APPROVAL ( #42, 'UNSPECIFIED' ) ;
#174 = FACE_OUTER_BOUND ( 'NONE', #65, .T. ) ;
#175 = ORIENTED_EDGE ( 'NONE', *, *, #75, .F. ) ;
ENDSEC;
END-ISO-10303-21;
